  0
SECTION
  2
HEADER
  9
$ACADVER
  1
AC1018
  9
$HANDSEED
  5
FFFFFF
  9
$EXTMAX
 10
7568423.59999999963
 20
5714053.28000000026
 30
1000000.00
  9
$EXTMIN
 10
7568326.1799999997
 20
5713838.30999999959
 30
0.00
  9
$LIMMIN
 10
7568326.1799999997
 20
5713838.30999999959
  9
$LIMMAX
 10
7568423.59999999963
 20
5714053.28000000026
  9
$DIMASZ
 40
2.5
  9
$DIMGAP
 40
0.625
  9
$INSUNITS
 70
6
  9
$DIMEXO
 40
0.625
  9
$DIMTXT
 40
2.5
  9
$DIMSTYLE
  2
Standard
  9
$PLIMMIN
 10
0.0
 20
0.0
  9
$PLIMMAX
 10
210.0
 20
297.0
  9
$DIMEXE
 40
1.25
  9
$TEXTSIZE
 40
2.5
  9
$TEXTSTYLE
  7
Standard
  9
$LWDISPLAY
290
1
  9
$TDCREATE
 40
44692.471701609
  9
$TDUCREATE
 40
44692.388368275
  9
$TDUPDATE
 40
44692.471701609
  9
$TDUUPDATE
 40
44692.388368275
  9
$TDINDWG
 40
0.0
  9
$TDUSRTIMER
 40
0.0
  9
$USRTIMER
 70
1
  0
ENDSEC
  0
SECTION
  2
CLASSES
  0
CLASS
  1
WIPEOUT
  2
AcDbWipeout
  3
WipeOut
 90
127
 91
1
280
0
281
1
  0
CLASS
  1
WIPEOUTVARIABLES
  2
AcDbWipeoutVariables
  3
WipeOut
 90
0
 91
1
280
0
281
0
  0
ENDSEC
  0
SECTION
  2
TABLES
  0
TABLE
  2
VPORT
  5
1
100
AcDbSymbolTable
 70
1
  0
VPORT
  5
2
100
AcDbSymbolTableRecord
100
AcDbViewportTableRecord
  2
*ACTIVE
 70
0
 10
0.0
 20
0.0
 11
1.0
 21
1.0
 12
7568374.89
 22
5713945.79
 13
0.0
 23
0.0
 14
1.0
 24
1.0
 15
0.0
 25
0.0
 16
0.0
 26
0.0
 36
1.0
 17
0.0
 27
0.0
 37
0.0
 40
214.97
 41
0.45
 42
50.0
 43
0.0
 44
0.0
 50
0.0
 51
0.0
 71
0
 72
100
 73
1
 74
1
 75
0
 76
0
 77
0
 78
0
  0
ENDTAB
  0
TABLE
  2
LTYPE
  5
3
100
AcDbSymbolTable
 70
3
  0
LTYPE
  5
4
100
AcDbSymbolTableRecord
100
AcDbLinetypeTableRecord
  2
ByBlock
 70
0
  3

 72
65
 73
0
 40
0.0
  0
LTYPE
  5
5
100
AcDbSymbolTableRecord
100
AcDbLinetypeTableRecord
  2
ByLayer
 70
0
  3

 72
65
 73
0
 40
0.0
  0
LTYPE
  5
6
100
AcDbSymbolTableRecord
100
AcDbLinetypeTableRecord
  2
CONTINUOUS
 70
0
  3
Solid line
 72
65
 73
0
 40
0.0
  0
LTYPE
  5
7
100
AcDbSymbolTableRecord
100
AcDbLinetypeTableRecord
  2
L_0_03
 70
0
  3
Uzytek_gruntowy
 72
65
 73
2
 40
1.0
 49
0.5
 74
0
 49
-0.5
 74
0
  0
ENDTAB
  0
TABLE
  2
LAYER
  5
8
100
AcDbSymbolTable
 70
2
  0
LAYER
  5
9
100
AcDbSymbolTableRecord
100
AcDbLayerTableRecord
  2
0
 70
0
 62
7
  6
CONTINUOUS
370
18
390
A
  0
LAYER
  5
B
100
AcDbSymbolTableRecord
100
AcDbLayerTableRecord
  2
RZEDY_3
 70
0
 62
212
  6
CONTINUOUS
370
25
390
A
  0
ENDTAB
  0
TABLE
  2
STYLE
  5
C
100
AcDbSymbolTable
 70
2
  0
STYLE
  5
D
100
AcDbSymbolTableRecord
100
AcDbTextStyleTableRecord
  2
STANDARD
 70
0
 40
0.0
 41
1.0
 50
0.0
 71
0
  3
simplex.shx
  4

  0
STYLE
  5
E
100
AcDbSymbolTableRecord
100
AcDbTextStyleTableRecord
  2
STANDARD_ITALIC
 70
0
 40
0.0
 41
1.0
 50
15.0
 71
0
  3
simplex.shx
  4

  0
ENDTAB
  0
TABLE
  2
VIEW
  5
F
100
AcDbSymbolTable
 70
0
  0
ENDTAB
  0
TABLE
  2
UCS
  5
10
100
AcDbSymbolTable
 70
0
  0
ENDTAB
  0
TABLE
  2
APPID
  5
11
100
AcDbSymbolTable
 70
1
  0
APPID
  5
12
100
AcDbSymbolTableRecord
100
AcDbRegAppTableRecord
  2
ACAD
 70
0
  0
ENDTAB
  0
TABLE
  2
DIMSTYLE
  5
13
100
AcDbSymbolTable
 70
1
100
AcDbDimStyleTable
  0
DIMSTYLE
105
14
100
AcDbSymbolTableRecord
100
AcDbDimStyleTableRecord
  2
Standard
 70
0
340
D
  0
ENDTAB
  0
TABLE
  2
BLOCK_RECORD
  5
15
100
AcDbSymbolTable
 70
3
  0
BLOCK_RECORD
  5
16
100
AcDbSymbolTableRecord
100
AcDbBlockTableRecord
  2
*Model_Space
340
17
  0
BLOCK_RECORD
  5
18
100
AcDbSymbolTableRecord
100
AcDbBlockTableRecord
  2
*Paper_Space
340
19
  0
BLOCK_RECORD
  5
1A
100
AcDbSymbolTableRecord
100
AcDbBlockTableRecord
  2
pikieta
340
1B
  0
ENDTAB
  0
ENDSEC
  0
SECTION
  2
BLOCKS
  0
BLOCK
  5
1C
100
AcDbEntity
  8
0
100
AcDbBlockBegin
  2
*Model_Space
 70
0
 10
0.0
 20
0.0
 30
0.0
  3
*Model_Space
  1

  0
ENDBLK
  5
1D
100
AcDbEntity
  8
0
100
AcDbBlockEnd
  0
BLOCK
  5
1E
100
AcDbEntity
 67
1
  8
0
100
AcDbBlockBegin
  2
*Paper_Space
 70
0
 10
0.0
 20
0.0
 30
0.0
  3
*Paper_Space
  1

  0
ENDBLK
  5
1F
100
AcDbEntity
 67
1
  8
0
100
AcDbBlockEnd
  0
BLOCK
  5
1B
100
AcDbEntity
  8
0
100
AcDbBlockBegin
 62
0
370
13
  2
pikieta
 70
0
 10
0
 20
0
 30
0
  3
pikieta
  0
POINT
  5
20
100
AcDbEntity
  8
0
100
AcDbPoint
 62
0
 10
0.0
 20
0.0
 30
0.00
  0
ENDBLK
  5
21
100
AcDbEntity
  8
0
100
AcDbBlockEnd
  0
ENDSEC
  0
SECTION
  2
ENTITIES
  0
POLYLINE
  5
22
100
AcDbEntity
  8
RZEDY_3
  6
CONTINUOUS
370
25
100
AcDb2dPolyline
 66
1
 70
128
  0
VERTEX
  5
23
100
AcDbEntity
  8
RZEDY_3
100
AcDbVertex
100
AcDb2dVertex
 10
7568330.28804325219
 20
5713842.98211162165
  0
VERTEX
  5
24
100
AcDbEntity
  8
RZEDY_3
100
AcDbVertex
100
AcDb2dVertex
 10
7568344.04804331623
 20
5713991.74211161584
  0
SEQEND
  5
25
100
AcDbEntity
  8
RZEDY_3
  0
POLYLINE
  5
26
100
AcDbEntity
  8
RZEDY_3
  6
L_0_03
 62
212
370
13
100
AcDb2dPolyline
 66
1
 70
128
  0
VERTEX
  5
27
100
AcDbEntity
  8
RZEDY_3
100
AcDbVertex
100
AcDb2dVertex
 10
7568405.17999999877
 20
5713846.16999999993
  0
VERTEX
  5
28
100
AcDbEntity
  8
RZEDY_3
100
AcDbVertex
100
AcDb2dVertex
 10
7568331.21787936706
 20
5713853.01134700142
  0
SEQEND
  5
29
100
AcDbEntity
  8
RZEDY_3
  0
POLYLINE
  5
2A
100
AcDbEntity
  8
RZEDY_3
  6
CONTINUOUS
 62
212
370
25
100
AcDb2dPolyline
 66
1
 70
128
  0
VERTEX
  5
2B
100
AcDbEntity
  8
RZEDY_3
100
AcDbVertex
100
AcDb2dVertex
 10
7568342.62209084537
 20
5713947.01164145209
  0
VERTEX
  5
2C
100
AcDbEntity
  8
RZEDY_3
100
AcDbVertex
100
AcDb2dVertex
 10
7568346.79644815996
 20
5713992.1408123374
  0
SEQEND
  5
2D
100
AcDbEntity
  8
RZEDY_3
  0
POLYLINE
  5
2E
100
AcDbEntity
  8
RZEDY_3
  6
CONTINUOUS
 62
212
370
25
100
AcDb2dPolyline
 66
1
 70
128
  0
VERTEX
  5
2F
100
AcDbEntity
  8
RZEDY_3
100
AcDbVertex
100
AcDb2dVertex
 10
7568333.03562079836
 20
5713843.37186838128
  0
VERTEX
  5
30
100
AcDbEntity
  8
RZEDY_3
100
AcDbVertex
100
AcDb2dVertex
 10
7568339.96339110285
 20
5713918.26831502654
  0
SEQEND
  5
31
100
AcDbEntity
  8
RZEDY_3
  0
POLYLINE
  5
32
100
AcDbEntity
  8
RZEDY_3
  6
CONTINUOUS
 62
212
370
25
100
AcDb2dPolyline
 66
1
 70
128
  0
VERTEX
  5
33
100
AcDbEntity
  8
RZEDY_3
100
AcDbVertex
100
AcDb2dVertex
 10
7568345.84303596709
 20
5713948.50183417089
  0
VERTEX
  5
34
100
AcDbEntity
  8
RZEDY_3
100
AcDbVertex
100
AcDb2dVertex
 10
7568349.8862909656
 20
5713992.21365181915
  0
SEQEND
  5
35
100
AcDbEntity
  8
RZEDY_3
  0
POLYLINE
  5
36
100
AcDbEntity
  8
RZEDY_3
  6
CONTINUOUS
 62
212
370
25
100
AcDb2dPolyline
 66
1
 70
128
  0
VERTEX
  5
37
100
AcDbEntity
  8
RZEDY_3
100
AcDbVertex
100
AcDb2dVertex
 10
7568336.12553462107
 20
5713843.44547565002
  0
VERTEX
  5
38
100
AcDbEntity
  8
RZEDY_3
100
AcDbVertex
100
AcDb2dVertex
 10
7568343.05715646222
 20
5713918.38356141839
  0
SEQEND
  5
39
100
AcDbEntity
  8
RZEDY_3
  0
POLYLINE
  5
3A
100
AcDbEntity
  8
RZEDY_3
  6
CONTINUOUS
 62
212
370
25
100
AcDb2dPolyline
 66
1
 70
128
  0
VERTEX
  5
3B
100
AcDbEntity
  8
RZEDY_3
100
AcDbVertex
100
AcDb2dVertex
 10
7568349.07382164057
 20
5713950.09841357823
  0
VERTEX
  5
3C
100
AcDbEntity
  8
RZEDY_3
100
AcDbVertex
100
AcDb2dVertex
 10
7568352.97613376938
 20
5713992.28649130184
  0
SEQEND
  5
3D
100
AcDbEntity
  8
RZEDY_3
  0
POLYLINE
  5
3E
100
AcDbEntity
  8
RZEDY_3
  6
CONTINUOUS
 62
212
370
25
100
AcDb2dPolyline
 66
1
 70
128
  0
VERTEX
  5
3F
100
AcDbEntity
  8
RZEDY_3
100
AcDbVertex
100
AcDb2dVertex
 10
7568339.21544844378
 20
5713843.51908291969
  0
VERTEX
  5
40
100
AcDbEntity
  8
RZEDY_3
100
AcDbVertex
100
AcDb2dVertex
 10
7568346.1509218188
 20
5713918.49880781025
  0
SEQEND
  5
41
100
AcDbEntity
  8
RZEDY_3
  0
POLYLINE
  5
42
100
AcDbEntity
  8
RZEDY_3
  6
CONTINUOUS
 62
212
370
25
100
AcDb2dPolyline
 66
1
 70
128
  0
VERTEX
  5
43
100
AcDbEntity
  8
RZEDY_3
100
AcDbVertex
100
AcDb2dVertex
 10
7568352.2849262068
 20
5713951.48221960943
  0
VERTEX
  5
44
100
AcDbEntity
  8
RZEDY_3
100
AcDbVertex
100
AcDb2dVertex
 10
7568356.06597657409
 20
5713992.3593307836
  0
SEQEND
  5
45
100
AcDbEntity
  8
RZEDY_3
  0
POLYLINE
  5
46
100
AcDbEntity
  8
RZEDY_3
  6
CONTINUOUS
 62
212
370
25
100
AcDb2dPolyline
 66
1
 70
128
  0
VERTEX
  5
47
100
AcDbEntity
  8
RZEDY_3
100
AcDbVertex
100
AcDb2dVertex
 10
7568342.30536226556
 20
5713843.5926901903
  0
VERTEX
  5
48
100
AcDbEntity
  8
RZEDY_3
100
AcDbVertex
100
AcDb2dVertex
 10
7568349.24468717631
 20
5713918.6140542021
  0
SEQEND
  5
49
100
AcDbEntity
  8
RZEDY_3
  0
POLYLINE
  5
4A
100
AcDbEntity
  8
RZEDY_3
  6
CONTINUOUS
 62
212
370
25
100
AcDb2dPolyline
 66
1
 70
128
  0
VERTEX
  5
4B
100
AcDbEntity
  8
RZEDY_3
100
AcDbVertex
100
AcDb2dVertex
 10
7568355.50587132759
 20
5713952.97241232917
  0
VERTEX
  5
4C
100
AcDbEntity
  8
RZEDY_3
100
AcDbVertex
100
AcDb2dVertex
 10
7568359.15581937693
 20
5713992.43217026629
  0
SEQEND
  5
4D
100
AcDbEntity
  8
RZEDY_3
  0
POLYLINE
  5
4E
100
AcDbEntity
  8
RZEDY_3
  6
CONTINUOUS
 62
212
370
25
100
AcDb2dPolyline
 66
1
 70
128
  0
VERTEX
  5
4F
100
AcDbEntity
  8
RZEDY_3
100
AcDbVertex
100
AcDb2dVertex
 10
7568345.39527609013
 20
5713843.66629745998
  0
VERTEX
  5
50
100
AcDbEntity
  8
RZEDY_3
100
AcDbVertex
100
AcDb2dVertex
 10
7568352.33845253568
 20
5713918.72930059396
  0
SEQEND
  5
51
100
AcDbEntity
  8
RZEDY_3
  0
POLYLINE
  5
52
100
AcDbEntity
  8
RZEDY_3
  6
CONTINUOUS
 62
212
370
25
100
AcDb2dPolyline
 66
1
 70
128
  0
VERTEX
  5
53
100
AcDbEntity
  8
RZEDY_3
100
AcDbVertex
100
AcDb2dVertex
 10
7568358.63024058472
 20
5713953.4185188897
  0
VERTEX
  5
54
100
AcDbEntity
  8
RZEDY_3
100
AcDbVertex
100
AcDb2dVertex
 10
7568362.24566218164
 20
5713992.50500974897
  0
SEQEND
  5
55
100
AcDbEntity
  8
RZEDY_3
  0
POLYLINE
  5
56
100
AcDbEntity
  8
RZEDY_3
  6
CONTINUOUS
 62
212
370
25
100
AcDb2dPolyline
 66
1
 70
128
  0
VERTEX
  5
57
100
AcDbEntity
  8
RZEDY_3
100
AcDbVertex
100
AcDb2dVertex
 10
7568348.48518991284
 20
5713843.73990473058
  0
VERTEX
  5
58
100
AcDbEntity
  8
RZEDY_3
100
AcDbVertex
100
AcDb2dVertex
 10
7568355.58583533578
 20
5713920.50531230401
  0
SEQEND
  5
59
100
AcDbEntity
  8
RZEDY_3
  0
POLYLINE
  5
5A
100
AcDbEntity
  8
RZEDY_3
  6
CONTINUOUS
 62
212
370
25
100
AcDb2dPolyline
 66
1
 70
128
  0
VERTEX
  5
5B
100
AcDbEntity
  8
RZEDY_3
100
AcDbVertex
100
AcDb2dVertex
 10
7568361.72148115933
 20
5713953.50646972936
  0
VERTEX
  5
5C
100
AcDbEntity
  8
RZEDY_3
100
AcDbVertex
100
AcDb2dVertex
 10
7568365.33550498541
 20
5713992.57784923073
  0
SEQEND
  5
5D
100
AcDbEntity
  8
RZEDY_3
  0
POLYLINE
  5
5E
100
AcDbEntity
  8
RZEDY_3
  6
CONTINUOUS
 62
212
370
25
100
AcDb2dPolyline
 66
1
 70
128
  0
VERTEX
  5
5F
100
AcDbEntity
  8
RZEDY_3
100
AcDbVertex
100
AcDb2dVertex
 10
7568351.57510373555
 20
5713843.81351200026
  0
VERTEX
  5
60
100
AcDbEntity
  8
RZEDY_3
100
AcDbVertex
100
AcDb2dVertex
 10
7568358.98109131958
 20
5713923.8799878601
  0
SEQEND
  5
61
100
AcDbEntity
  8
RZEDY_3
  0
POLYLINE
  5
62
100
AcDbEntity
  8
RZEDY_3
  6
CONTINUOUS
 62
212
370
25
100
AcDb2dPolyline
 66
1
 70
128
  0
VERTEX
  5
63
100
AcDbEntity
  8
RZEDY_3
100
AcDbVertex
100
AcDb2dVertex
 10
7568364.81272173207
 20
5713953.59442056902
  0
VERTEX
  5
64
100
AcDbEntity
  8
RZEDY_3
100
AcDbVertex
100
AcDb2dVertex
 10
7568368.42534778919
 20
5713992.65068871528
  0
SEQEND
  5
65
100
AcDbEntity
  8
RZEDY_3
  0
POLYLINE
  5
66
100
AcDbEntity
  8
RZEDY_3
  6
CONTINUOUS
 62
212
370
25
100
AcDb2dPolyline
 66
1
 70
128
  0
VERTEX
  5
67
100
AcDbEntity
  8
RZEDY_3
100
AcDbVertex
100
AcDb2dVertex
 10
7568354.66501755826
 20
5713843.88711926993
  0
VERTEX
  5
68
100
AcDbEntity
  8
RZEDY_3
100
AcDbVertex
100
AcDb2dVertex
 10
7568362.37634730339
 20
5713927.25466341618
  0
SEQEND
  5
69
100
AcDbEntity
  8
RZEDY_3
  0
POLYLINE
  5
6A
100
AcDbEntity
  8
RZEDY_3
  6
CONTINUOUS
 62
212
370
25
100
AcDb2dPolyline
 66
1
 70
128
  0
VERTEX
  5
6B
100
AcDbEntity
  8
RZEDY_3
100
AcDbVertex
100
AcDb2dVertex
 10
7568367.90396230668
 20
5713953.68237140961
  0
VERTEX
  5
6C
100
AcDbEntity
  8
RZEDY_3
100
AcDbVertex
100
AcDb2dVertex
 10
7568371.5151905939
 20
5713992.72352819704
  0
SEQEND
  5
6D
100
AcDbEntity
  8
RZEDY_3
  0
POLYLINE
  5
6E
100
AcDbEntity
  8
RZEDY_3
  6
CONTINUOUS
 62
212
370
25
100
AcDb2dPolyline
 66
1
 70
128
  0
VERTEX
  5
6F
100
AcDbEntity
  8
RZEDY_3
100
AcDbVertex
100
AcDb2dVertex
 10
7568357.7549313819
 20
5713843.96072653867
  0
VERTEX
  5
70
100
AcDbEntity
  8
RZEDY_3
100
AcDbVertex
100
AcDb2dVertex
 10
7568365.7716032872
 20
5713930.6293389732
  0
SEQEND
  5
71
100
AcDbEntity
  8
RZEDY_3
  0
POLYLINE
  5
72
100
AcDbEntity
  8
RZEDY_3
  6
CONTINUOUS
 62
212
370
25
100
AcDb2dPolyline
 66
1
 70
128
  0
VERTEX
  5
73
100
AcDbEntity
  8
RZEDY_3
100
AcDbVertex
100
AcDb2dVertex
 10
7568370.8302052347
 20
5713951.98652503733
  0
VERTEX
  5
74
100
AcDbEntity
  8
RZEDY_3
100
AcDbVertex
100
AcDb2dVertex
 10
7568374.60503339674
 20
5713992.79636767972
  0
SEQEND
  5
75
100
AcDbEntity
  8
RZEDY_3
  0
POLYLINE
  5
76
100
AcDbEntity
  8
RZEDY_3
  6
CONTINUOUS
 62
212
370
25
100
AcDb2dPolyline
 66
1
 70
128
  0
VERTEX
  5
77
100
AcDbEntity
  8
RZEDY_3
100
AcDbVertex
100
AcDb2dVertex
 10
7568360.83999999985
 20
5713844.03000000026
  0
VERTEX
  5
78
100
AcDbEntity
  8
RZEDY_3
100
AcDbVertex
100
AcDb2dVertex
 10
7568369.16999999993
 20
5713934.0
  0
SEQEND
  5
79
100
AcDbEntity
  8
RZEDY_3
  0
POLYLINE
  5
7A
100
AcDbEntity
  8
RZEDY_3
  6
CONTINUOUS
 62
212
370
25
100
AcDb2dPolyline
 66
1
 70
128
  0
VERTEX
  5
7B
100
AcDbEntity
  8
RZEDY_3
100
AcDbVertex
100
AcDb2dVertex
 10
7568365.27338618785
 20
5713844.13982957043
  0
VERTEX
  5
7C
100
AcDbEntity
  8
RZEDY_3
100
AcDbVertex
100
AcDb2dVertex
 10
7568379.03347259574
 20
5713992.90076302923
  0
SEQEND
  5
7D
100
AcDbEntity
  8
RZEDY_3
  0
POLYLINE
  5
7E
100
AcDbEntity
  8
RZEDY_3
  6
CONTINUOUS
 62
212
370
25
100
AcDb2dPolyline
 66
1
 70
128
  0
VERTEX
  5
7F
100
AcDbEntity
  8
RZEDY_3
100
AcDbVertex
100
AcDb2dVertex
 10
7568368.36330000963
 20
5713844.2134368401
  0
VERTEX
  5
80
100
AcDbEntity
  8
RZEDY_3
100
AcDbVertex
100
AcDb2dVertex
 10
7568382.12331540044
 20
5713992.97360251192
  0
SEQEND
  5
81
100
AcDbEntity
  8
RZEDY_3
  0
POLYLINE
  5
82
100
AcDbEntity
  8
RZEDY_3
  6
CONTINUOUS
 62
212
370
25
100
AcDb2dPolyline
 66
1
 70
128
  0
VERTEX
  5
83
100
AcDbEntity
  8
RZEDY_3
100
AcDbVertex
100
AcDb2dVertex
 10
7568371.45321383327
 20
5713844.28704410978
  0
VERTEX
  5
84
100
AcDbEntity
  8
RZEDY_3
100
AcDbVertex
100
AcDb2dVertex
 10
7568385.21315820515
 20
5713993.04644199368
  0
SEQEND
  5
85
100
AcDbEntity
  8
RZEDY_3
  0
POLYLINE
  5
86
100
AcDbEntity
  8
RZEDY_3
  6
CONTINUOUS
 62
212
370
25
100
AcDb2dPolyline
 66
1
 70
128
  0
VERTEX
  5
87
100
AcDbEntity
  8
RZEDY_3
100
AcDbVertex
100
AcDb2dVertex
 10
7568374.54312765691
 20
5713844.36065137945
  0
VERTEX
  5
88
100
AcDbEntity
  8
RZEDY_3
100
AcDbVertex
100
AcDb2dVertex
 10
7568388.303001008
 20
5713993.1192814773
  0
SEQEND
  5
89
100
AcDbEntity
  8
RZEDY_3
  0
POLYLINE
  5
8A
100
AcDbEntity
  8
RZEDY_3
  6
CONTINUOUS
 62
212
370
25
100
AcDb2dPolyline
 66
1
 70
128
  0
VERTEX
  5
8B
100
AcDbEntity
  8
RZEDY_3
100
AcDbVertex
100
AcDb2dVertex
 10
7568377.63304147776
 20
5713844.43425865006
  0
VERTEX
  5
8C
100
AcDbEntity
  8
RZEDY_3
100
AcDbVertex
100
AcDb2dVertex
 10
7568391.39284381084
 20
5713993.19212095905
  0
SEQEND
  5
8D
100
AcDbEntity
  8
RZEDY_3
  0
POLYLINE
  5
8E
100
AcDbEntity
  8
RZEDY_3
  6
CONTINUOUS
 62
212
370
25
100
AcDb2dPolyline
 66
1
 70
128
  0
VERTEX
  5
8F
100
AcDbEntity
  8
RZEDY_3
100
AcDbVertex
100
AcDb2dVertex
 10
7568380.72295530327
 20
5713844.5078659188
  0
VERTEX
  5
90
100
AcDbEntity
  8
RZEDY_3
100
AcDbVertex
100
AcDb2dVertex
 10
7568394.48268661741
 20
5713993.26496044267
  0
SEQEND
  5
91
100
AcDbEntity
  8
RZEDY_3
  0
POLYLINE
  5
92
100
AcDbEntity
  8
RZEDY_3
  6
CONTINUOUS
 62
212
370
25
100
AcDb2dPolyline
 66
1
 70
128
  0
VERTEX
  5
93
100
AcDbEntity
  8
RZEDY_3
100
AcDbVertex
100
AcDb2dVertex
 10
7568383.81286912505
 20
5713844.58147318941
  0
VERTEX
  5
94
100
AcDbEntity
  8
RZEDY_3
100
AcDbVertex
100
AcDb2dVertex
 10
7568397.57252942026
 20
5713993.33779992536
  0
SEQEND
  5
95
100
AcDbEntity
  8
RZEDY_3
  0
POLYLINE
  5
96
100
AcDbEntity
  8
RZEDY_3
  6
CONTINUOUS
 62
212
370
25
100
AcDb2dPolyline
 66
1
 70
128
  0
VERTEX
  5
97
100
AcDbEntity
  8
RZEDY_3
100
AcDbVertex
100
AcDb2dVertex
 10
7568386.90278294776
 20
5713844.65508046001
  0
VERTEX
  5
98
100
AcDbEntity
  8
RZEDY_3
100
AcDbVertex
100
AcDb2dVertex
 10
7568400.66237222496
 20
5713993.41063940711
  0
SEQEND
  5
99
100
AcDbEntity
  8
RZEDY_3
  0
POLYLINE
  5
9A
100
AcDbEntity
  8
RZEDY_3
  6
CONTINUOUS
 62
212
370
25
100
AcDb2dPolyline
 66
1
 70
128
  0
VERTEX
  5
9B
100
AcDbEntity
  8
RZEDY_3
100
AcDbVertex
100
AcDb2dVertex
 10
7568389.99269676954
 20
5713844.72868772876
  0
VERTEX
  5
9C
100
AcDbEntity
  8
RZEDY_3
100
AcDbVertex
100
AcDb2dVertex
 10
7568403.75221502781
 20
5713993.4834788898
  0
SEQEND
  5
9D
100
AcDbEntity
  8
RZEDY_3
  0
POLYLINE
  5
9E
100
AcDbEntity
  8
RZEDY_3
  6
CONTINUOUS
 62
212
370
25
100
AcDb2dPolyline
 66
1
 70
128
  0
VERTEX
  5
9F
100
AcDbEntity
  8
RZEDY_3
100
AcDbVertex
100
AcDb2dVertex
 10
7568393.08261059411
 20
5713844.80229499936
  0
VERTEX
  5
A0
100
AcDbEntity
  8
RZEDY_3
100
AcDbVertex
100
AcDb2dVertex
 10
7568406.84205783158
 20
5713993.55631837156
  0
SEQEND
  5
A1
100
AcDbEntity
  8
RZEDY_3
  0
POLYLINE
  5
A2
100
AcDbEntity
  8
RZEDY_3
  6
CONTINUOUS
 62
212
370
25
100
AcDb2dPolyline
 66
1
 70
128
  0
VERTEX
  5
A3
100
AcDbEntity
  8
RZEDY_3
100
AcDbVertex
100
AcDb2dVertex
 10
7568396.17252441496
 20
5713844.8759022681
  0
VERTEX
  5
A4
100
AcDbEntity
  8
RZEDY_3
100
AcDbVertex
100
AcDb2dVertex
 10
7568409.93190063629
 20
5713993.62915785518
  0
SEQEND
  5
A5
100
AcDbEntity
  8
RZEDY_3
  0
POLYLINE
  5
A6
100
AcDbEntity
  8
RZEDY_3
  6
CONTINUOUS
 62
212
370
25
100
AcDb2dPolyline
 66
1
 70
128
  0
VERTEX
  5
A7
100
AcDbEntity
  8
RZEDY_3
100
AcDbVertex
100
AcDb2dVertex
 10
7568399.2624382386
 20
5713844.94950953778
  0
VERTEX
  5
A8
100
AcDbEntity
  8
RZEDY_3
100
AcDbVertex
100
AcDb2dVertex
 10
7568413.02174344007
 20
5713993.70199733693
  0
SEQEND
  5
A9
100
AcDbEntity
  8
RZEDY_3
  0
POLYLINE
  5
AA
100
AcDbEntity
  8
RZEDY_3
  6
CONTINUOUS
 62
212
370
25
100
AcDb2dPolyline
 66
1
 70
128
  0
VERTEX
  5
AB
100
AcDbEntity
  8
RZEDY_3
100
AcDbVertex
100
AcDb2dVertex
 10
7568402.35235206131
 20
5713845.02311680838
  0
VERTEX
  5
AC
100
AcDbEntity
  8
RZEDY_3
100
AcDbVertex
100
AcDb2dVertex
 10
7568408.44929875154
 20
5713910.93749075197
  0
SEQEND
  5
AD
100
AcDbEntity
  8
RZEDY_3
  0
POLYLINE
  5
AE
100
AcDbEntity
  8
RZEDY_3
  6
CONTINUOUS
 62
212
370
25
100
AcDb2dPolyline
 66
1
 70
128
  0
VERTEX
  5
AF
100
AcDbEntity
  8
RZEDY_3
100
AcDbVertex
100
AcDb2dVertex
 10
7568373.59216432739
 20
5713934.11130562425
  0
VERTEX
  5
B0
100
AcDbEntity
  8
RZEDY_3
100
AcDbVertex
100
AcDb2dVertex
 10
7568407.5894819675
 20
5713934.96701617073
  0
SEQEND
  5
B1
100
AcDbEntity
  8
RZEDY_3
  0
POLYLINE
  5
B2
100
AcDbEntity
  8
RZEDY_3
  6
CONTINUOUS
 62
212
370
25
100
AcDb2dPolyline
 66
1
 70
128
  0
VERTEX
  5
B3
100
AcDbEntity
  8
RZEDY_3
100
AcDbVertex
100
AcDb2dVertex
 10
7568419.29999999981
 20
5713993.84999999963
  0
VERTEX
  5
B4
100
AcDbEntity
  8
RZEDY_3
100
AcDbVertex
100
AcDb2dVertex
 10
7568341.27199999988
 20
5713991.98900000006
  0
SEQEND
  5
B5
100
AcDbEntity
  8
RZEDY_3
  0
POLYLINE
  5
B6
100
AcDbEntity
  8
RZEDY_3
  6
CONTINUOUS
 62
212
370
25
100
AcDb2dPolyline
 66
1
 70
128
  0
VERTEX
  5
B7
100
AcDbEntity
  8
RZEDY_3
100
AcDbVertex
100
AcDb2dVertex
 10
7568417.88332127314
 20
5714053.28195756394
  0
VERTEX
  5
B8
100
AcDbEntity
  8
RZEDY_3
100
AcDbVertex
100
AcDb2dVertex
 10
7568339.85332145821
 20
5714051.42194977589
  0
SEQEND
  5
B9
100
AcDbEntity
  8
RZEDY_3
  0
POLYLINE
  5
BA
100
AcDbEntity
  8
RZEDY_3
  6
CONTINUOUS
 62
212
370
25
100
AcDb2dPolyline
 66
1
 70
128
  0
VERTEX
  5
BB
100
AcDbEntity
  8
RZEDY_3
100
AcDbVertex
100
AcDb2dVertex
 10
7568330.31810701359
 20
5713843.30713234562
  0
VERTEX
  5
BC
100
AcDbEntity
  8
RZEDY_3
100
AcDbVertex
100
AcDb2dVertex
 10
7568405.16000000015
 20
5713845.08999999985
  0
SEQEND
  5
BD
100
AcDbEntity
  8
RZEDY_3
  0
POLYLINE
  5
BE
100
AcDbEntity
  8
RZEDY_3
  6
CONTINUOUS
 62
212
370
25
100
AcDb2dPolyline
 66
1
 70
128
  0
VERTEX
  5
BF
100
AcDbEntity
  8
RZEDY_3
100
AcDbVertex
100
AcDb2dVertex
 10
7568330.41000000015
 20
5713844.30999999959
  0
VERTEX
  5
C0
100
AcDbEntity
  8
RZEDY_3
100
AcDbVertex
100
AcDb2dVertex
 10
7568405.13999999966
 20
5713846.08999999985
  0
SEQEND
  5
C1
100
AcDbEntity
  8
RZEDY_3
  0
POLYLINE
  5
C2
100
AcDbEntity
  8
RZEDY_3
  6
L_0_03
370
13
100
AcDb2dPolyline
 66
1
 70
128
  0
VERTEX
  5
C3
100
AcDbEntity
  8
RZEDY_3
100
AcDbVertex
100
AcDb2dVertex
 10
7568330.41000000015
 20
5713844.30999999959
  0
VERTEX
  5
C4
100
AcDbEntity
  8
RZEDY_3
100
AcDbVertex
100
AcDb2dVertex
 10
7568330.41000000015
 20
5713844.30999999959
  0
SEQEND
  5
C5
100
AcDbEntity
  8
RZEDY_3
  0
POLYLINE
  5
C6
100
AcDbEntity
  8
RZEDY_3
  6
L_0_03
370
13
100
AcDb2dPolyline
 66
1
 70
128
  0
VERTEX
  5
C7
100
AcDbEntity
  8
RZEDY_3
100
AcDbVertex
100
AcDb2dVertex
 10
7568333.12999999989
 20
5713844.37999999989
  0
VERTEX
  5
C8
100
AcDbEntity
  8
RZEDY_3
100
AcDbVertex
100
AcDb2dVertex
 10
7568333.1301240772
 20
5713844.37479085848
  0
SEQEND
  5
C9
100
AcDbEntity
  8
RZEDY_3
  0
POLYLINE
  5
CA
100
AcDbEntity
  8
RZEDY_3
  6
L_0_03
370
13
100
AcDb2dPolyline
 66
1
 70
128
  0
VERTEX
  5
CB
100
AcDbEntity
  8
RZEDY_3
100
AcDbVertex
100
AcDb2dVertex
 10
7568336.21999999974
 20
5713844.45000000019
  0
VERTEX
  5
CC
100
AcDbEntity
  8
RZEDY_3
100
AcDbVertex
100
AcDb2dVertex
 10
7568336.22003835347
 20
5713844.44838977978
  0
SEQEND
  5
CD
100
AcDbEntity
  8
RZEDY_3
  0
POLYLINE
  5
CE
100
AcDbEntity
  8
RZEDY_3
  6
L_0_03
370
13
100
AcDb2dPolyline
 66
1
 70
128
  0
VERTEX
  5
CF
100
AcDbEntity
  8
RZEDY_3
100
AcDbVertex
100
AcDb2dVertex
 10
7568339.30999999959
 20
5713844.51999999955
  0
VERTEX
  5
D0
100
AcDbEntity
  8
RZEDY_3
100
AcDbVertex
100
AcDb2dVertex
 10
7568339.30995263066
 20
5713844.52198870108
  0
SEQEND
  5
D1
100
AcDbEntity
  8
RZEDY_3
  0
POLYLINE
  5
D2
100
AcDbEntity
  8
RZEDY_3
  6
L_0_03
370
13
100
AcDb2dPolyline
 66
1
 70
128
  0
VERTEX
  5
D3
100
AcDbEntity
  8
RZEDY_3
100
AcDbVertex
100
AcDb2dVertex
 10
7568342.40000000037
 20
5713844.59999999963
  0
VERTEX
  5
D4
100
AcDbEntity
  8
RZEDY_3
100
AcDbVertex
100
AcDb2dVertex
 10
7568342.40010496415
 20
5713844.5955932932
  0
SEQEND
  5
D5
100
AcDbEntity
  8
RZEDY_3
  0
POLYLINE
  5
D6
100
AcDbEntity
  8
RZEDY_3
  6
L_0_03
370
13
100
AcDb2dPolyline
 66
1
 70
128
  0
VERTEX
  5
D7
100
AcDbEntity
  8
RZEDY_3
100
AcDbVertex
100
AcDb2dVertex
 10
7568345.49000000022
 20
5713844.66999999993
  0
VERTEX
  5
D8
100
AcDbEntity
  8
RZEDY_3
100
AcDbVertex
100
AcDb2dVertex
 10
7568345.49001924135
 20
5713844.6691922145
  0
SEQEND
  5
D9
100
AcDbEntity
  8
RZEDY_3
  0
POLYLINE
  5
DA
100
AcDbEntity
  8
RZEDY_3
  6
L_0_03
370
13
100
AcDb2dPolyline
 66
1
 70
128
  0
VERTEX
  5
DB
100
AcDbEntity
  8
RZEDY_3
100
AcDbVertex
100
AcDb2dVertex
 10
7568348.58000000007
 20
5713844.74000000022
  0
VERTEX
  5
DC
100
AcDbEntity
  8
RZEDY_3
100
AcDbVertex
100
AcDb2dVertex
 10
7568348.57993351761
 20
5713844.74279113673
  0
SEQEND
  5
DD
100
AcDbEntity
  8
RZEDY_3
  0
POLYLINE
  5
DE
100
AcDbEntity
  8
RZEDY_3
  6
L_0_03
370
13
100
AcDb2dPolyline
 66
1
 70
128
  0
VERTEX
  5
DF
100
AcDbEntity
  8
RZEDY_3
100
AcDbVertex
100
AcDb2dVertex
 10
7568351.66999999993
 20
5713844.8200000003
  0
VERTEX
  5
E0
100
AcDbEntity
  8
RZEDY_3
100
AcDbVertex
100
AcDb2dVertex
 10
7568351.67008585017
 20
5713844.81639572885
  0
SEQEND
  5
E1
100
AcDbEntity
  8
RZEDY_3
  0
POLYLINE
  5
E2
100
AcDbEntity
  8
RZEDY_3
  6
L_0_03
370
13
100
AcDb2dPolyline
 66
1
 70
128
  0
VERTEX
  5
E3
100
AcDbEntity
  8
RZEDY_3
100
AcDbVertex
100
AcDb2dVertex
 10
7568354.75999999978
 20
5713844.88999999966
  0
VERTEX
  5
E4
100
AcDbEntity
  8
RZEDY_3
100
AcDbVertex
100
AcDb2dVertex
 10
7568354.76000012737
 20
5713844.88999465015
  0
SEQEND
  5
E5
100
AcDbEntity
  8
RZEDY_3
  0
POLYLINE
  5
E6
100
AcDbEntity
  8
RZEDY_3
  6
L_0_03
370
13
100
AcDb2dPolyline
 66
1
 70
128
  0
VERTEX
  5
E7
100
AcDbEntity
  8
RZEDY_3
100
AcDbVertex
100
AcDb2dVertex
 10
7568357.83999999985
 20
5713844.96999999974
  0
VERTEX
  5
E8
100
AcDbEntity
  8
RZEDY_3
100
AcDbVertex
100
AcDb2dVertex
 10
7568357.84015813004
 20
5713844.96336118598
  0
SEQEND
  5
E9
100
AcDbEntity
  8
RZEDY_3
  0
POLYLINE
  5
EA
100
AcDbEntity
  8
RZEDY_3
  6
L_0_03
370
13
100
AcDb2dPolyline
 66
1
 70
128
  0
VERTEX
  5
EB
100
AcDbEntity
  8
RZEDY_3
100
AcDbVertex
100
AcDb2dVertex
 10
7568360.9299999997
 20
5713845.04000000004
  0
VERTEX
  5
EC
100
AcDbEntity
  8
RZEDY_3
100
AcDbVertex
100
AcDb2dVertex
 10
7568360.93007240724
 20
5713845.03696010821
  0
SEQEND
  5
ED
100
AcDbEntity
  8
RZEDY_3
  0
POLYLINE
  5
EE
100
AcDbEntity
  8
RZEDY_3
  6
L_0_03
370
13
100
AcDb2dPolyline
 66
1
 70
128
  0
VERTEX
  5
EF
100
AcDbEntity
  8
RZEDY_3
100
AcDbVertex
100
AcDb2dVertex
 10
7568365.36000000034
 20
5713845.13999999966
  0
VERTEX
  5
F0
100
AcDbEntity
  8
RZEDY_3
100
AcDbVertex
100
AcDb2dVertex
 10
7568365.36000000034
 20
5713845.13999999966
  0
SEQEND
  5
F1
100
AcDbEntity
  8
RZEDY_3
  0
POLYLINE
  5
F2
100
AcDbEntity
  8
RZEDY_3
  6
L_0_03
370
13
100
AcDb2dPolyline
 66
1
 70
128
  0
VERTEX
  5
F3
100
AcDbEntity
  8
RZEDY_3
100
AcDbVertex
100
AcDb2dVertex
 10
7568368.45000000019
 20
5713845.21999999974
  0
VERTEX
  5
F4
100
AcDbEntity
  8
RZEDY_3
100
AcDbVertex
100
AcDb2dVertex
 10
7568368.45014813822
 20
5713845.21379690058
  0
SEQEND
  5
F5
100
AcDbEntity
  8
RZEDY_3
  0
POLYLINE
  5
F6
100
AcDbEntity
  8
RZEDY_3
  6
L_0_03
370
13
100
AcDb2dPolyline
 66
1
 70
128
  0
VERTEX
  5
F7
100
AcDbEntity
  8
RZEDY_3
100
AcDbVertex
100
AcDb2dVertex
 10
7568371.54000000004
 20
5713845.29000000004
  0
VERTEX
  5
F8
100
AcDbEntity
  8
RZEDY_3
100
AcDbVertex
100
AcDb2dVertex
 10
7568371.54005759954
 20
5713845.28758810181
  0
SEQEND
  5
F9
100
AcDbEntity
  8
RZEDY_3
  0
POLYLINE
  5
FA
100
AcDbEntity
  8
RZEDY_3
  6
L_0_03
370
13
100
AcDb2dPolyline
 66
1
 70
128
  0
VERTEX
  5
FB
100
AcDbEntity
  8
RZEDY_3
100
AcDbVertex
100
AcDb2dVertex
 10
7568374.62999999989
 20
5713845.36000000034
  0
VERTEX
  5
FC
100
AcDbEntity
  8
RZEDY_3
100
AcDbVertex
100
AcDb2dVertex
 10
7568374.62996705994
 20
5713845.36137930397
  0
SEQEND
  5
FD
100
AcDbEntity
  8
RZEDY_3
  0
POLYLINE
  5
FE
100
AcDbEntity
  8
RZEDY_3
  6
L_0_03
370
13
100
AcDb2dPolyline
 66
1
 70
128
  0
VERTEX
  5
FF
100
AcDbEntity
  8
RZEDY_3
100
AcDbVertex
100
AcDb2dVertex
 10
7568377.71999999974
 20
5713845.44000000041
  0
VERTEX
  5
100
100
AcDbEntity
  8
RZEDY_3
100
AcDbVertex
100
AcDb2dVertex
 10
7568377.72011519875
 20
5713845.43517620489
  0
SEQEND
  5
101
100
AcDbEntity
  8
RZEDY_3
  0
POLYLINE
  5
102
100
AcDbEntity
  8
RZEDY_3
  6
L_0_03
370
13
100
AcDb2dPolyline
 66
1
 70
128
  0
VERTEX
  5
103
100
AcDbEntity
  8
RZEDY_3
100
AcDbVertex
100
AcDb2dVertex
 10
7568380.80999999959
 20
5713845.50999999978
  0
VERTEX
  5
104
100
AcDbEntity
  8
RZEDY_3
100
AcDbVertex
100
AcDb2dVertex
 10
7568380.81002465915
 20
5713845.50896740612
  0
SEQEND
  5
105
100
AcDbEntity
  8
RZEDY_3
  0
POLYLINE
  5
106
100
AcDbEntity
  8
RZEDY_3
  6
L_0_03
370
13
100
AcDb2dPolyline
 66
1
 70
128
  0
VERTEX
  5
107
100
AcDbEntity
  8
RZEDY_3
100
AcDbVertex
100
AcDb2dVertex
 10
7568383.90000000037
 20
5713845.58000000007
  0
VERTEX
  5
108
100
AcDbEntity
  8
RZEDY_3
100
AcDbVertex
100
AcDb2dVertex
 10
7568383.89993412141
 20
5713845.58275860734
  0
SEQEND
  5
109
100
AcDbEntity
  8
RZEDY_3
  0
POLYLINE
  5
10A
100
AcDbEntity
  8
RZEDY_3
  6
L_0_03
370
13
100
AcDb2dPolyline
 66
1
 70
128
  0
VERTEX
  5
10B
100
AcDbEntity
  8
RZEDY_3
100
AcDbVertex
100
AcDb2dVertex
 10
7568386.99000000022
 20
5713845.66000000015
  0
VERTEX
  5
10C
100
AcDbEntity
  8
RZEDY_3
100
AcDbVertex
100
AcDb2dVertex
 10
7568386.99008225929
 20
5713845.65655550826
  0
SEQEND
  5
10D
100
AcDbEntity
  8
RZEDY_3
  0
POLYLINE
  5
10E
100
AcDbEntity
  8
RZEDY_3
  6
L_0_03
370
13
100
AcDb2dPolyline
 66
1
 70
128
  0
VERTEX
  5
10F
100
AcDbEntity
  8
RZEDY_3
100
AcDbVertex
100
AcDb2dVertex
 10
7568390.08000000007
 20
5713845.73000000045
  0
VERTEX
  5
110
100
AcDbEntity
  8
RZEDY_3
100
AcDbVertex
100
AcDb2dVertex
 10
7568390.07999172062
 20
5713845.73034671042
  0
SEQEND
  5
111
100
AcDbEntity
  8
RZEDY_3
  0
POLYLINE
  5
112
100
AcDbEntity
  8
RZEDY_3
  6
L_0_03
370
13
100
AcDb2dPolyline
 66
1
 70
128
  0
VERTEX
  5
113
100
AcDbEntity
  8
RZEDY_3
100
AcDbVertex
100
AcDb2dVertex
 10
7568393.16999999993
 20
5713845.80999999959
  0
VERTEX
  5
114
100
AcDbEntity
  8
RZEDY_3
100
AcDbVertex
100
AcDb2dVertex
 10
7568393.1701398585
 20
5713845.80414361134
  0
SEQEND
  5
115
100
AcDbEntity
  8
RZEDY_3
  0
POLYLINE
  5
116
100
AcDbEntity
  8
RZEDY_3
  6
L_0_03
370
13
100
AcDb2dPolyline
 66
1
 70
128
  0
VERTEX
  5
117
100
AcDbEntity
  8
RZEDY_3
100
AcDbVertex
100
AcDb2dVertex
 10
7568396.25999999978
 20
5713845.87999999989
  0
VERTEX
  5
118
100
AcDbEntity
  8
RZEDY_3
100
AcDbVertex
100
AcDb2dVertex
 10
7568396.2600493189
 20
5713845.87793481257
  0
SEQEND
  5
119
100
AcDbEntity
  8
RZEDY_3
  0
POLYLINE
  5
11A
100
AcDbEntity
  8
RZEDY_3
  6
L_0_03
370
13
100
AcDb2dPolyline
 66
1
 70
128
  0
VERTEX
  5
11B
100
AcDbEntity
  8
RZEDY_3
100
AcDbVertex
100
AcDb2dVertex
 10
7568399.34999999963
 20
5713845.95000000019
  0
VERTEX
  5
11C
100
AcDbEntity
  8
RZEDY_3
100
AcDbVertex
100
AcDb2dVertex
 10
7568399.34995878022
 20
5713845.95172601379
  0
SEQEND
  5
11D
100
AcDbEntity
  8
RZEDY_3
  0
POLYLINE
  5
11E
100
AcDbEntity
  8
RZEDY_3
  6
L_0_03
370
13
100
AcDb2dPolyline
 66
1
 70
128
  0
VERTEX
  5
11F
100
AcDbEntity
  8
RZEDY_3
100
AcDbVertex
100
AcDb2dVertex
 10
7568402.44000000041
 20
5713846.03000000026
  0
VERTEX
  5
120
100
AcDbEntity
  8
RZEDY_3
100
AcDbVertex
100
AcDb2dVertex
 10
7568402.44010691904
 20
5713846.02552291565
  0
SEQEND
  5
121
100
AcDbEntity
  8
RZEDY_3
  0
POLYLINE
  5
122
100
AcDbEntity
  8
RZEDY_3
  6
L_0_03
370
13
100
AcDb2dPolyline
 66
1
 70
128
  0
VERTEX
  5
123
100
AcDbEntity
  8
RZEDY_3
100
AcDbVertex
100
AcDb2dVertex
 10
7568405.13999999966
 20
5713846.08999999985
  0
VERTEX
  5
124
100
AcDbEntity
  8
RZEDY_3
100
AcDbVertex
100
AcDb2dVertex
 10
7568405.13999999966
 20
5713846.08999999985
  0
SEQEND
  5
125
100
AcDbEntity
  8
RZEDY_3
  0
POLYLINE
  5
126
100
AcDbEntity
  8
RZEDY_3
  6
CONTINUOUS
 62
212
370
25
100
AcDb2dPolyline
 66
1
 70
128
  0
VERTEX
  5
127
100
AcDbEntity
  8
RZEDY_3
100
AcDbVertex
100
AcDb2dVertex
 10
7568373.96639965102
 20
5713938.12191356998
  0
VERTEX
  5
128
100
AcDbEntity
  8
RZEDY_3
100
AcDbVertex
100
AcDb2dVertex
 10
7568407.95988603402
 20
5713938.97752791457
  0
SEQEND
  5
129
100
AcDbEntity
  8
RZEDY_3
  0
POLYLINE
  5
12A
100
AcDbEntity
  8
RZEDY_3
  6
CONTINUOUS
 62
212
370
25
100
AcDb2dPolyline
 66
1
 70
128
  0
VERTEX
  5
12B
100
AcDbEntity
  8
RZEDY_3
100
AcDbVertex
100
AcDb2dVertex
 10
7568330.96806527581
 20
5713850.32725555915
  0
VERTEX
  5
12C
100
AcDbEntity
  8
RZEDY_3
100
AcDbVertex
100
AcDb2dVertex
 10
7568404.99356181361
 20
5713852.08788422029
  0
SEQEND
  5
12D
100
AcDbEntity
  8
RZEDY_3
  0
TEXT
  5
12E
100
AcDbEntity
  8
RZEDY_3
 62
212
370
18
100
AcDbText
 39
0.18
 10
7568328.86852944829
 20
5713852.78039629199
 40
0.90
  1
10.07
 50
-0.60
 41
0.66
  7
STANDARD
 72
0
 11
7568328.87795405369
 21
5713853.68034694437
100
AcDbText
 73
3
  0
TEXT
  5
12F
100
AcDbEntity
  8
RZEDY_3
 62
212
370
18
100
AcDbText
 39
0.18
 10
7568366.24771874957
 20
5713849.95245523006
 40
0.90
  1
-74.28-
 50
354.70
 41
0.66
  7
STANDARD
 72
0
 11
7568366.33085227851
 21
5713850.84860745817
100
AcDbText
 73
3
  0
TEXT
  5
130
100
AcDbEntity
  8
RZEDY_3
370
18
100
AcDbText
 39
0.18
 10
7568329.96013433021
 20
5713844.2990055196
 40
0.90
  1
0.00
 50
-88.60
 41
0.66
  7
STANDARD
 72
0
 11
7568330.41000000015
 21
5713844.30999999959
100
AcDbText
 73
2
  0
TEXT
  5
131
100
AcDbEntity
  8
RZEDY_3
370
18
100
AcDbText
 39
0.18
 10
7568332.58013432659
 20
5713842.9390055174
 40
0.90
  1
2.72
 50
-88.60
 41
0.66
  7
STANDARD
 72
0
 11
7568333.02999999654
 21
5713842.94999999739
100
AcDbText
 73
2
  0
TEXT
  5
132
100
AcDbEntity
  8
RZEDY_3
370
18
100
AcDbText
 39
0.18
 10
7568335.66013432667
 20
5713843.10900551733
 40
0.90
  1
5.81
 50
-88.60
 41
0.66
  7
STANDARD
 72
0
 11
7568336.10999999661
 21
5713843.11999999732
100
AcDbText
 73
2
  0
TEXT
  5
133
100
AcDbEntity
  8
RZEDY_3
370
18
100
AcDbText
 39
0.18
 10
7568338.7861564057
 20
5713843.08846819866
 40
0.90
  1
8.90
 50
-88.60
 41
0.66
  7
STANDARD
 72
2
 11
7568339.27999999654
 21
5713841.29999999702
100
AcDbText
 73
2
  0
TEXT
  5
134
100
AcDbEntity
  8
RZEDY_3
370
18
100
AcDbText
 39
0.18
 10
7568341.68013432622
 20
5713843.3690055171
 40
0.90
  1
11.99
 50
-88.60
 41
0.66
  7
STANDARD
 72
0
 11
7568342.12999999616
 21
5713843.37999999709
100
AcDbText
 73
2
  0
TEXT
  5
135
100
AcDbEntity
  8
RZEDY_3
370
18
100
AcDbText
 39
0.18
 10
7568344.89013432618
 20
5713843.51900551748
 40
0.90
  1
15.08
 50
-88.60
 41
0.66
  7
STANDARD
 72
0
 11
7568345.33999999613
 21
5713843.52999999747
100
AcDbText
 73
2
  0
TEXT
  5
136
100
AcDbEntity
  8
RZEDY_3
370
18
100
AcDbText
 39
0.18
 10
7568348.19516192563
 20
5713843.22833386902
 40
0.90
  1
18.18
 50
-88.60
 41
0.66
  7
STANDARD
 72
2
 11
7568348.69999999646
 21
5713840.98999999743
100
AcDbText
 73
2
  0
TEXT
  5
137
100
AcDbEntity
  8
RZEDY_3
370
18
100
AcDbText
 39
0.18
 10
7568351.14013432618
 20
5713843.41900551692
 40
0.90
  1
21.27
 50
-88.60
 41
0.66
  7
STANDARD
 72
0
 11
7568351.58999999613
 21
5713843.42999999691
100
AcDbText
 73
2
  0
TEXT
  5
138
100
AcDbEntity
  8
RZEDY_3
370
18
100
AcDbText
 39
0.18
 10
7568354.29013432656
 20
5713843.62900551688
 40
0.90
  1
24.36
 50
-88.60
 41
0.66
  7
STANDARD
 72
0
 11
7568354.7399999965
 21
5713843.63999999687
100
AcDbText
 73
2
  0
TEXT
  5
139
100
AcDbEntity
  8
RZEDY_3
370
18
100
AcDbText
 39
0.18
 10
7568357.29013432656
 20
5713843.44900551718
 40
0.90
  1
27.44
 50
-88.60
 41
0.66
  7
STANDARD
 72
0
 11
7568357.7399999965
 21
5713843.45999999717
100
AcDbText
 73
2
  0
TEXT
  5
13A
100
AcDbEntity
  8
RZEDY_3
370
18
100
AcDbText
 39
0.18
 10
7568360.63013432641
 20
5713843.59900551755
 40
0.90
  1
30.53
 50
-88.60
 41
0.66
  7
STANDARD
 72
0
 11
7568361.07999999635
 21
5713843.60999999754
100
AcDbText
 73
2
  0
TEXT
  5
13B
100
AcDbEntity
  8
RZEDY_3
370
18
100
AcDbText
 39
0.18
 10
7568364.88013432641
 20
5713843.96900551673
 40
0.90
  1
0.00
 50
-88.60
 41
0.66
  7
STANDARD
 72
0
 11
7568365.32999999635
 21
5713843.97999999672
100
AcDbText
 73
2
  0
TEXT
  5
13C
100
AcDbEntity
  8
RZEDY_3
370
18
100
AcDbText
 39
0.18
 10
7568368.05013432633
 20
5713843.7990055168
 40
0.90
  1
3.09
 50
-88.60
 41
0.66
  7
STANDARD
 72
0
 11
7568368.49999999628
 21
5713843.8099999968
100
AcDbText
 73
2
  0
TEXT
  5
13D
100
AcDbEntity
  8
RZEDY_3
370
18
100
AcDbText
 39
0.18
 10
7568371.05013432633
 20
5713843.88900551759
 40
0.90
  1
6.18
 50
-88.60
 41
0.66
  7
STANDARD
 72
0
 11
7568371.49999999627
 21
5713843.89999999758
100
AcDbText
 73
2
  0
TEXT
  5
13E
100
AcDbEntity
  8
RZEDY_3
370
18
100
AcDbText
 39
0.18
 10
7568374.2161564054
 20
5713843.88846819848
 40
0.90
  1
9.27
 50
-88.60
 41
0.66
  7
STANDARD
 72
2
 11
7568374.70999999624
 21
5713842.09999999683
100
AcDbText
 73
2
  0
TEXT
  5
13F
100
AcDbEntity
  8
RZEDY_3
370
18
100
AcDbText
 39
0.18
 10
7568377.32013432588
 20
5713844.38900551759
 40
0.90
  1
12.36
 50
-88.60
 41
0.66
  7
STANDARD
 72
0
 11
7568377.76999999583
 21
5713844.39999999758
100
AcDbText
 73
2
  0
TEXT
  5
140
100
AcDbEntity
  8
RZEDY_3
370
18
100
AcDbText
 39
0.18
 10
7568380.31013432611
 20
5713844.35900551733
 40
0.90
  1
15.45
 50
-88.60
 41
0.66
  7
STANDARD
 72
0
 11
7568380.75999999605
 21
5713844.36999999732
100
AcDbText
 73
2
  0
TEXT
  5
141
100
AcDbEntity
  8
RZEDY_3
370
18
100
AcDbText
 39
0.18
 10
7568383.49516192544
 20
5713844.24833386857
 40
0.90
  1
18.55
 50
-88.60
 41
0.66
  7
STANDARD
 72
2
 11
7568383.99999999627
 21
5713842.00999999698
100
AcDbText
 73
2
  0
TEXT
  5
142
100
AcDbEntity
  8
RZEDY_3
370
18
100
AcDbText
 39
0.18
 10
7568386.60013432614
 20
5713844.2990055168
 40
0.90
  1
21.64
 50
-88.60
 41
0.66
  7
STANDARD
 72
0
 11
7568387.04999999609
 21
5713844.3099999968
100
AcDbText
 73
2
  0
TEXT
  5
143
100
AcDbEntity
  8
RZEDY_3
370
18
100
AcDbText
 39
0.18
 10
7568389.50516192522
 20
5713844.19833386876
 40
0.90
  1
24.73
 50
-88.60
 41
0.66
  7
STANDARD
 72
2
 11
7568390.00999999605
 21
5713841.95999999717
100
AcDbText
 73
2
  0
TEXT
  5
144
100
AcDbEntity
  8
RZEDY_3
370
18
100
AcDbText
 39
0.18
 10
7568392.73013432603
 20
5713844.34900551755
 40
0.90
  1
27.82
 50
-88.60
 41
0.66
  7
STANDARD
 72
0
 11
7568393.17999999598
 21
5713844.35999999754
100
AcDbText
 73
2
  0
TEXT
  5
145
100
AcDbEntity
  8
RZEDY_3
370
18
100
AcDbText
 39
0.18
 10
7568395.71013432648
 20
5713844.66900551692
 40
0.90
  1
30.91
 50
-88.60
 41
0.66
  7
STANDARD
 72
0
 11
7568396.15999999642
 21
5713844.67999999691
100
AcDbText
 73
2
  0
TEXT
  5
146
100
AcDbEntity
  8
RZEDY_3
370
18
100
AcDbText
 39
0.18
 10
7568398.79516192526
 20
5713844.52833386883
 40
0.90
  1
34.00
 50
-88.60
 41
0.66
  7
STANDARD
 72
2
 11
7568399.29999999609
 21
5713842.28999999724
100
AcDbText
 73
2
  0
TEXT
  5
147
100
AcDbEntity
  8
RZEDY_3
370
18
100
AcDbText
 39
0.18
 10
7568401.83013432659
 20
5713844.72900551744
 40
0.90
  1
37.09
 50
-88.60
 41
0.66
  7
STANDARD
 72
0
 11
7568402.27999999654
 21
5713844.73999999743
100
AcDbText
 73
2
  0
TEXT
  5
148
100
AcDbEntity
  8
RZEDY_3
370
18
100
AcDbText
 39
0.18
 10
7568404.51013432629
 20
5713844.63900551759
 40
0.90
  1
39.79
 50
-88.60
 41
0.66
  7
STANDARD
 72
0
 11
7568404.95999999624
 21
5713844.64999999758
100
AcDbText
 73
2
  0
ENDSEC
  0
SECTION
  2
OBJECTS
  0
DICTIONARY
  5
149
330
0
100
AcDbDictionary
280
0
281
1
  3
ACAD_GROUP
350
14A
  3
ACAD_LAYOUT
350
14B
  3
ACAD_MLINESTYLE
350
14C
  3
ACAD_PLOTSETTINGS
350
14D
  3
ACAD_PLOTSTYLENAME
350
14E
  3
ACAD_WIPEOUT_VARS
350
14F
  0
DICTIONARY
  5
14A
102
{ACAD_REACTORS
330
149
102
}
330
149
100
AcDbDictionary
280
0
281
1
  0
DICTIONARY
  5
14B
102
{ACAD_REACTORS
330
149
102
}
330
149
100
AcDbDictionary
280
0
281
1
  3
Layout
350
19
  3
Model
350
17
  0
DICTIONARY
  5
14C
102
{ACAD_REACTORS
330
149
102
}
330
149
100
AcDbDictionary
280
0
281
1
  3
Standard
350
150
  0
DICTIONARY
  5
14D
102
{ACAD_REACTORS
330
149
102
}
330
149
100
AcDbDictionary
280
0
281
1
  0
ACDBDICTIONARYWDFLT
  5
14E
102
{ACAD_REACTORS
330
149
102
}
330
149
100
AcDbDictionary
281
1
  3
Normal
350
A
100
AcDbDictionaryWithDefault
340
A
  0
WIPEOUTVARIABLES
  5
14F
102
{ACAD_REACTORS
330
149
102
}
330
149
100
AcDbWipeoutVariables
 70
0
  0
LAYOUT
  5
19
100
AcDbPlotSettings
  1

  2

  4

  6

 40
0.0
 41
0.0
 42
0.0
 43
0.0
 44
0.0
 45
0.0
 46
0.0
 47
0.0
 48
0.0
 49
0.0
140
0.0
141
0.0
142
1.0
143
1.0
 70
688
 72
1
 73
0
 74
5
  7

 75
0
147
1.0
148
0.0
149
0.0
100
AcDbLayout
  1
Layout
 70
1
 71
1
 10
0.0
 20
0.0
 11
420.0
 21
297.0
 12
0.0
 22
0.0
 32
0.0
 14
100000000000000000000.0
 24
100000000000000000000.0
 34
100000000000000000000.0
 15
-100000000000000000000.0
 25
-100000000000000000000.0
 35
-100000000000000000000.0
146
0.0
 13
0.0
 23
0.0
 33
0.0
 16
1.0
 26
0.0
 36
0.0
 17
0.0
 27
1.0
 37
0.0
 76
0
330
18
  0
LAYOUT
  5
17
100
AcDbPlotSettings
  1

  2

  4

  6

 40
0.0
 41
0.0
 42
0.0
 43
0.0
 44
0.0
 45
0.0
 46
0.0
 47
0.0
 48
0.0
 49
0.0
140
0.0
141
0.0
142
1.0
143
1.0
 70
1712
 72
1
 73
0
 74
0
  7

 75
0
147
1.0
148
0.0
149
0.0
100
AcDbLayout
  1
Model
 70
1
 71
0
 10
0.0
 20
0.0
 11
12.0
 21
9.0
 12
0.0
 22
0.0
 32
0.0
 14
0.0
 24
0.0
 34
0.0
 15
0.0
 25
0.0
 35
0.0
146
0.0
 13
0.0
 23
0.0
 33
0.0
 16
1.0
 26
0.0
 36
0.0
 17
0.0
 27
1.0
 37
0.0
 76
0
330
16
  0
MLINESTYLE
  5
150
102
{ACAD_REACTORS
330
14C
102
}
330
14C
100
AcDbMlineStyle
  2
Standard
 70
0
  3

 62
256
 51
90.0
 52
90.0
  2
Standard
 71
2
 49
0.5
 62
256
  6
ByLayer
 49
-0.5
 62
256
  6
ByLayer
  0
ACDBPLACEHOLDER
  5
A
  0
ENDSEC
  0
EOF
